Custom Guitar Tabs

Discussion in 'Writing' started by Greg Bernhardt, Jan 4, 2007.

  1. Greg Bernhardt
    Offline

    Greg Bernhardt www.physics*****s.com

    Joined:
    Dec 8, 2006
    Messages:
    378
    Thanks Received:
    12
    Trophy Points:
    16
    Ratings:
    +12
    I wrote some simple tabs of some interesting patterns I messed with. I have no training on the guitar, I mess around maybe an hour week.

    Code:
    ----------------------------------------------13-14-13-12----------------------
    --------------------------------13-14-13---14------------13--------------------
    ------------------13-14-13---14---------15------------------14-13-12-----------
    ------13-14-13--14--------15----------------------------------------13---------
    ----14--------15-------------------------------------------------------14------
    --15---------------------------------------------------------------------------
    
    
    
    
    --------------11-10-11-10----------------------------------------------------
    -----11-10----------------11-------------------------------------------------
    --12-------12----------------12----------------------------------------------
    -----------------------------------------------------------------------------
    -----------------------------------------------------------------------------
    -----------------------------------------------------------------------------
    
    
    
    
    -5-------5---9-----9/12/9----------------------------------------------------
    ---7-9-7---7---7-9--------9----7~~-------------------------------------------
    ----------------------------10-----------------------------------------------
    -----------------------------------------------------------------------------
    -----------------------------------------------------------------------------
    -----------------------------------------------------------------------------
    
    
    
    -----------------------------------------------------------------------------
    -----------------------------------------------------------------------------
    -----------------------------------------------------------------------------
    -9---99---99---99---9-7---77---77---77---------------------------------------
    -7---77---77---77---7-5---55---55---55---------------------------------------
    ---8----8----8----8-----6----6----6----6-------------------------------------
    
    
    
    
    -----------------------------------------------------------------------------
    -----------------------------------------------------------------------------
    -----------------------------------------------------------------------------
    -------------------------12----15-14-12--------------------------------------
    ---12-14-15---17-15-14------14----------14-12--------------------------------
    -0----------0----------0-----------------------------------------------------
    Code:
    ----------------------------------------------------------------------------
    ----------------------------------------------------------------------------
    ----99-99--9--77--77--7--55--55--5----7--9----------------------------------
    ---7--7---7--5---5---5--3---3---3----5--7-----------------------------------
    ----------------------------------------------------------------------------
    ----------------------------------------------------------------------------
    
    
    ----------------------------------------------------------------------------------
    --55555555-----------55555555-----------------------------------------------------
    --55555555-----------55555555-----------------------------------------------------
    --33333333--22222222-33333333--22222222----------22-44-55-5555555-22-44-55-5555555
    ------------22222222-----------22222222-22-22-22-22-44-55-5555555-22-44-55-5555555
    ----------------------------------------33-33-33----------------------------------
    
    
    ------------------------------------------------------------------------------
    ------------------------------------------------------------------------------
    --9-5-7-9-5-7-----------------------------------------------------------------
    --9-5-7-9-5-7---------22--22-55-77-99-12--------------------------------------
    --7-3-5-7-3-5--55-55--22--22-55-77-99-12--------------------------------------
    ---------------77-33----------------------------------------------------------
    
    
    -------------------------------------------------v17---17-15-17-12-15-12-5---
    ----------------------------------13----13-15-17-----------------------------
    -------------------12----12-14-16----16--------------------------------------
    ----------12-14-15----15-----------------------------------------------------
    -12-14-15--------------------------------------------------------------------
    -----------------------------------------------------------------------------
    
    
    -5-8-5-8-7-10-7-10-5-8-5-8-5---5-7-8-7-5-------------------------------------
    -----------------------------8-----------7-5---------8-7---8-7---------------
    ---------------------------------------------5h7-7h9-----9-----9-7-7h9-------
    -----------------------------------------------------------------------------
    -----------------------------------------------------------------------------
    -----------------------------------------------------------------------------
    
    
    ------------------------v17--------------------------------------------------
    ----------9-11-12-14-15------------------------------------------------------
    ------7-9--------------------------------------------------------------------
    --5h7------------------------------------------------------------------------
    -----------------------------------------------------------------------------
    -----------------------------------------------------------------------------
    
    
    
    
    
    
    
    
    
    
    
    ----------------------------------------------13-14-13-12----------------------
    --------------------------------13-14-13---14------------13--------------------
    ------------------13-14-13---14---------15------------------14-13-12-----------
    ------13-14-13--14--------15----------------------------------------13---------
    ----14--------15-------------------------------------------------------14------
    --15---------------------------------------------------------------------------
    
    
    
    
    
    
    
    --------------11-10-11-10----------------------------------------------------
    -----11-10----------------11-------------------------------------------------
    --12-------12----------------12----------------------------------------------
    -----------------------------------------------------------------------------
    -----------------------------------------------------------------------------
    -----------------------------------------------------------------------------
    
    
     
  2. 5stringJeff
    Offline

    5stringJeff Senior Member

    Joined:
    Sep 15, 2003
    Messages:
    9,990
    Thanks Received:
    536
    Trophy Points:
    48
    Location:
    Puyallup, WA
    Ratings:
    +540
    Looks pretty fun to play. Do you play any other instruments?
     
  3. Greg Bernhardt
    Offline

    Greg Bernhardt www.physics*****s.com

    Joined:
    Dec 8, 2006
    Messages:
    378
    Thanks Received:
    12
    Trophy Points:
    16
    Ratings:
    +12
    Unfortunately not, I'm not very musicly inclined I'm afraid. Any clips of your work online?
     

Share This Page